ISO-10303-21;
HEADER;
/****************************************************************
 * Generated by software with PDE/Lib inside                    *
 * PDElib Version 4.0, created Mon Oct 07, 2002 at 18:44:48     *
 * International Technegroup Inc. (www.iti-oh.com)              *
 ****************************************************************/
FILE_DESCRIPTION((''),'2;1');
FILE_NAME('C:\\DATA\\VÝKRESY 2004\\UPÍNKY\\800 082\\800 082-E1.stp','2005-09-28T15:15:39',('CAD'),(''),'Autodesk Inventor 8','Autodesk Inventor 8','');
FILE_SCHEMA(('AUTOMOTIVE_DESIGN { 1 0 10303 214 1 1 1 1 }'));
ENDSEC;
DATA;
#5=APPLICATION_CONTEXT('automotive design');
#6=APPLICATION_PROTOCOL_DEFINITION('Draft International Standard','automotive_design',1998,#5);
#7=PRODUCT_CONTEXT('None',#5,'mechanical');
#8=PRODUCT('800 082-E1','800 082-E1','None',(#7));
#9=PRODUCT_RELATED_PRODUCT_CATEGORY('part','description',(#8));
#10=PRODUCT_DEFINITION_FORMATION('None','None',#8);
#11=PRODUCT_DEFINITION_CONTEXT('part definition',#5,'design');
#12=PRODUCT_DEFINITION('None','None',#10,#11);
#18=(NAMED_UNIT(*)PLANE_ANGLE_UNIT()SI_UNIT($,.RADIAN.));
#19=DIMENSIONAL_EXPONENTS(0.0,0.0,0.0,0.0,0.0,0.0,0.0);
#20=PLANE_ANGLE_MEASURE_WITH_UNIT(PLANE_ANGLE_MEASURE(0.017453292500000),#18);
#24=(CONVERSION_BASED_UNIT('DEGREE',#20)NAMED_UNIT(#19)PLANE_ANGLE_UNIT());
#28=(NAMED_UNIT(*)SI_UNIT($,.STERADIAN.)SOLID_ANGLE_UNIT());
#32=(LENGTH_UNIT()NAMED_UNIT(*)SI_UNIT(.MILLI.,.METRE.));
#34=UNCERTAINTY_MEASURE_WITH_UNIT(LENGTH_MEASURE(0.000001000000000),#32,'DISTANCE_ACCURACY_VALUE','');
#36=(GEOMETRIC_REPRESENTATION_CONTEXT(3)GLOBAL_UNCERTAINTY_ASSIGNED_CONTEXT((#34))GLOBAL_UNIT_ASSIGNED_CONTEXT((#24,#28,#32))REPRESENTATION_CONTEXT('None','None'));
#37=AXIS2_PLACEMENT_3D('',#38,#39,#40);
#38=CARTESIAN_POINT('',(0.0,0.0,0.0));
#39=DIRECTION('',(0.0,0.0,1.0));
#40=DIRECTION('',(1.0,0.0,0.0));
#41=SHAPE_REPRESENTATION('',(#37),#36);
#42=PRODUCT_DEFINITION_SHAPE('','',#12);
#43=SHAPE_DEFINITION_REPRESENTATION(#42,#41);
#44=CARTESIAN_POINT('',(6.913057173623818,4.500000000000001,0.0));
#45=DIRECTION('',(-1.233581E-016,1.0,0.0));
#46=DIRECTION('',(-1.0,0.0,0.0));
#47=AXIS2_PLACEMENT_3D('',#44,#45,#46);
#48=CONICAL_SURFACE('',#47,7.706528586811910,9.999999999999986);
#49=CARTESIAN_POINT('',(-0.291416243669855,1.652703644666138,-1.764529E-015));
#50=VERTEX_POINT('',#49);
#51=CARTESIAN_POINT('',(-1.586942826376183,9.0,0.0));
#52=VERTEX_POINT('',#51);
#53=CARTESIAN_POINT('',(-0.291416243669855,1.652703644666138,-1.764529E-015));
#54=DIRECTION('',(-0.173648177666930,0.984807753012208,2.365117E-016));
#55=VECTOR('',#54,7.460640244617146);
#56=LINE('',#53,#55);
#57=EDGE_CURVE('',#50,#52,#56,.T.);
#58=ORIENTED_EDGE('',*,*,#57,.F.);
#59=CARTESIAN_POINT('',(6.913057173623818,1.652703644666139,7.204473417293673));
#60=VERTEX_POINT('',#59);
#61=CARTESIAN_POINT('',(6.913057173623818,1.652703644666139,-8.822644E-016));
#62=DIRECTION('',(0.0,-1.0,0.0));
#63=DIRECTION('',(1.0,0.0,0.0));
#64=AXIS2_PLACEMENT_3D('',#61,#62,#63);
#65=CIRCLE('',#64,7.204473417293674);
#66=EDGE_CURVE('',#60,#50,#65,.T.);
#67=ORIENTED_EDGE('',*,*,#66,.F.);
#68=CARTESIAN_POINT('',(14.117530590917491,1.652703644666140,8.822644E-016));
#69=VERTEX_POINT('',#68);
#70=CARTESIAN_POINT('',(6.913057173623818,1.652703644666139,-8.822644E-016));
#71=DIRECTION('',(0.0,-1.0,0.0));
#72=DIRECTION('',(1.0,0.0,0.0));
#73=AXIS2_PLACEMENT_3D('',#70,#71,#72);
#74=CIRCLE('',#73,7.204473417293674);
#75=EDGE_CURVE('',#69,#60,#74,.T.);
#76=ORIENTED_EDGE('',*,*,#75,.F.);
#77=CARTESIAN_POINT('',(15.413057173623818,9.000000000000002,1.040915E-015));
#78=VERTEX_POINT('',#77);
#79=CARTESIAN_POINT('',(15.413057173623818,9.000000000000002,1.040915E-015));
#80=DIRECTION('',(-0.173648177666930,-0.984807753012208,-2.126507E-017));
#81=VECTOR('',#80,7.460640244617146);
#82=LINE('',#79,#81);
#83=EDGE_CURVE('',#78,#69,#82,.T.);
#84=ORIENTED_EDGE('',*,*,#83,.F.);
#85=CARTESIAN_POINT('',(6.913057173623818,9.0,0.0));
#86=DIRECTION('',(0.0,1.0,0.0));
#87=DIRECTION('',(-1.0,0.0,0.0));
#88=AXIS2_PLACEMENT_3D('',#85,#86,#87);
#89=CIRCLE('',#88,8.500000000000000);
#90=EDGE_CURVE('',#52,#78,#89,.T.);
#91=ORIENTED_EDGE('',*,*,#90,.F.);
#92=EDGE_LOOP('',(#58,#67,#76,#84,#91));
#93=FACE_OUTER_BOUND('',#92,.T.);
#94=ADVANCED_FACE('',(#93),#48,.T.);
#95=CARTESIAN_POINT('',(6.913057173623819,2.000000000000000,0.0));
#96=DIRECTION('',(-1.233581E-016,1.0,0.0));
#97=DIRECTION('',(0.0,0.0,1.0));
#98=AXIS2_PLACEMENT_3D('',#95,#96,#97);
#99=TOROIDAL_SURFACE('',#98,5.234857911269257,2.0);
#100=CARTESIAN_POINT('',(6.913057173623818,5.551115E-016,5.234857911269257));
#101=VERTEX_POINT('',#100);
#102=CARTESIAN_POINT('',(6.913057173623818,2.000000000000000,5.234857911269257));
#103=DIRECTION('',(-1.0,0.0,0.0));
#104=DIRECTION('',(0.0,0.0,1.0));
#105=AXIS2_PLACEMENT_3D('',#102,#103,#104);
#106=CIRCLE('',#105,2.0);
#107=EDGE_CURVE('',#101,#60,#106,.T.);
#108=ORIENTED_EDGE('',*,*,#107,.F.);
#109=CARTESIAN_POINT('',(6.913057173623820,5.551115E-016,-5.234857911269257));
#110=VERTEX_POINT('',#109);
#111=CARTESIAN_POINT('',(6.913057173623819,5.551115E-016,0.0));
#112=DIRECTION('',(0.0,1.0,0.0));
#113=DIRECTION('',(1.0,0.0,0.0));
#114=AXIS2_PLACEMENT_3D('',#111,#112,#113);
#115=CIRCLE('',#114,5.234857911269257);
#116=EDGE_CURVE('',#101,#110,#115,.T.);
#117=ORIENTED_EDGE('',*,*,#116,.T.);
#118=CARTESIAN_POINT('',(6.913057173623820,1.652703644666139,-7.204473417293674));
#119=VERTEX_POINT('',#118);
#120=CARTESIAN_POINT('',(6.913057173623820,2.000000000000000,-5.234857911269257));
#121=DIRECTION('',(-1.0,0.0,0.0));
#122=DIRECTION('',(0.0,0.0,-1.0));
#123=AXIS2_PLACEMENT_3D('',#120,#121,#122);
#124=CIRCLE('',#123,2.0);
#125=EDGE_CURVE('',#119,#110,#124,.T.);
#126=ORIENTED_EDGE('',*,*,#125,.F.);
#127=CARTESIAN_POINT('',(6.913057173623818,1.652703644666139,-8.822644E-016));
#128=DIRECTION('',(0.0,-1.0,0.0));
#129=DIRECTION('',(1.0,0.0,0.0));
#130=AXIS2_PLACEMENT_3D('',#127,#128,#129);
#131=CIRCLE('',#130,7.204473417293674);
#132=EDGE_CURVE('',#119,#69,#131,.T.);
#133=ORIENTED_EDGE('',*,*,#132,.T.);
#134=ORIENTED_EDGE('',*,*,#75,.T.);
#135=EDGE_LOOP('',(#108,#117,#126,#133,#134));
#136=FACE_OUTER_BOUND('',#135,.T.);
#137=ADVANCED_FACE('',(#136),#99,.T.);
#138=CARTESIAN_POINT('',(6.913057173623818,9.0,0.0));
#139=DIRECTION('',(0.0,-1.0,0.0));
#140=DIRECTION('',(-1.0,0.0,0.0));
#141=AXIS2_PLACEMENT_3D('',#138,#139,#140);
#142=CYLINDRICAL_SURFACE('',#141,5.0);
#143=CARTESIAN_POINT('',(1.913057173623818,6.999999999999998,2.775558E-015));
#144=VERTEX_POINT('',#143);
#145=CARTESIAN_POINT('',(1.913057173623818,9.0,6.123032E-016));
#146=VERTEX_POINT('',#145);
#147=CARTESIAN_POINT('',(1.913057173623818,6.999999999999998,2.775558E-015));
#148=DIRECTION('',(0.0,1.0,0.0));
#149=VECTOR('',#148,2.000000000000002);
#150=LINE('',#147,#149);
#151=EDGE_CURVE('',#144,#146,#150,.T.);
#152=ORIENTED_EDGE('',*,*,#151,.F.);
#153=CARTESIAN_POINT('',(4.413057173623817,6.999999999999997,-4.330127018922193));
#154=VERTEX_POINT('',#153);
#155=CARTESIAN_POINT('',(6.913057173623818,6.999999999999998,0.0));
#156=DIRECTION('',(0.0,1.0,0.0));
#157=DIRECTION('',(-1.0,0.0,0.0));
#158=AXIS2_PLACEMENT_3D('',#155,#156,#157);
#159=CIRCLE('',#158,5.0);
#160=EDGE_CURVE('',#154,#144,#159,.T.);
#161=ORIENTED_EDGE('',*,*,#160,.F.);
#162=CARTESIAN_POINT('',(9.413057173623818,6.999999999999998,-4.330127018922195));
#163=VERTEX_POINT('',#162);
#164=CARTESIAN_POINT('',(6.913057173623818,6.999999999999998,0.0));
#165=DIRECTION('',(0.0,1.0,0.0));
#166=DIRECTION('',(-1.0,0.0,0.0));
#167=AXIS2_PLACEMENT_3D('',#164,#165,#166);
#168=CIRCLE('',#167,5.0);
#169=EDGE_CURVE('',#163,#154,#168,.T.);
#170=ORIENTED_EDGE('',*,*,#169,.F.);
#171=CARTESIAN_POINT('',(11.913057173623818,7.0,-6.123032E-016));
#172=VERTEX_POINT('',#171);
#173=CARTESIAN_POINT('',(6.913057173623818,6.999999999999998,0.0));
#174=DIRECTION('',(0.0,1.0,0.0));
#175=DIRECTION('',(-1.0,0.0,0.0));
#176=AXIS2_PLACEMENT_3D('',#173,#174,#175);
#177=CIRCLE('',#176,5.0);
#178=EDGE_CURVE('',#172,#163,#177,.T.);
#179=ORIENTED_EDGE('',*,*,#178,.F.);
#180=CARTESIAN_POINT('',(11.913057173623818,9.0,-6.123032E-016));
#181=VERTEX_POINT('',#180);
#182=CARTESIAN_POINT('',(11.913057173623818,9.0,-6.123032E-016));
#183=DIRECTION('',(0.0,-1.0,0.0));
#184=VECTOR('',#183,2.0);
#185=LINE('',#182,#184);
#186=EDGE_CURVE('',#181,#172,#185,.T.);
#187=ORIENTED_EDGE('',*,*,#186,.F.);
#188=CARTESIAN_POINT('',(6.913057173623818,9.0,0.0));
#189=DIRECTION('',(0.0,-1.0,0.0));
#190=DIRECTION('',(-1.0,0.0,0.0));
#191=AXIS2_PLACEMENT_3D('',#188,#189,#190);
#192=CIRCLE('',#191,5.0);
#193=EDGE_CURVE('',#146,#181,#192,.T.);
#194=ORIENTED_EDGE('',*,*,#193,.F.);
#195=EDGE_LOOP('',(#152,#161,#170,#179,#187,#194));
#196=FACE_OUTER_BOUND('',#195,.T.);
#197=ADVANCED_FACE('',(#196),#142,.F.);
#198=CARTESIAN_POINT('',(6.913057173623818,6.999999999999998,0.0));
#199=DIRECTION('',(0.0,-1.0,0.0));
#200=DIRECTION('',(0.0,0.0,-1.0));
#201=AXIS2_PLACEMENT_3D('',#198,#199,#200);
#202=PLANE('',#201);
#203=CARTESIAN_POINT('',(11.913057173623818,7.0,-2.886751345948130));
#204=VERTEX_POINT('',#203);
#205=CARTESIAN_POINT('',(11.913057173623818,7.0,-6.123032E-016));
#206=DIRECTION('',(0.0,0.0,-1.0));
#207=VECTOR('',#206,2.886751345948130);
#208=LINE('',#205,#207);
#209=EDGE_CURVE('',#172,#204,#208,.T.);
#210=ORIENTED_EDGE('',*,*,#209,.F.);
#211=ORIENTED_EDGE('',*,*,#178,.T.);
#212=CARTESIAN_POINT('',(11.913057173623818,7.0,-2.886751345948130));
#213=DIRECTION('',(-0.866025403784439,-6.153481E-016,-0.500000000000000));
#214=VECTOR('',#213,2.886751345948129);
#215=LINE('',#212,#214);
#216=EDGE_CURVE('',#204,#163,#215,.T.);
#217=ORIENTED_EDGE('',*,*,#216,.F.);
#218=EDGE_LOOP('',(#210,#211,#217));
#219=FACE_OUTER_BOUND('',#218,.T.);
#220=ADVANCED_FACE('',(#219),#202,.T.);
#221=CARTESIAN_POINT('',(6.913057173623818,6.999999999999998,0.0));
#222=DIRECTION('',(0.0,-1.0,0.0));
#223=DIRECTION('',(0.0,0.0,-1.0));
#224=AXIS2_PLACEMENT_3D('',#221,#222,#223);
#225=PLANE('',#224);
#226=CARTESIAN_POINT('',(9.413057173623820,6.999999999999997,4.330127018922193));
#227=VERTEX_POINT('',#226);
#228=CARTESIAN_POINT('',(11.913057173623818,7.0,2.886751345948127));
#229=VERTEX_POINT('',#228);
#230=CARTESIAN_POINT('',(9.413057173623820,6.999999999999997,4.330127018922193));
#231=DIRECTION('',(0.866025403784438,9.230221E-016,-0.500000000000001));
#232=VECTOR('',#231,2.886751345948128);
#233=LINE('',#230,#232);
#234=EDGE_CURVE('',#227,#229,#233,.T.);
#235=ORIENTED_EDGE('',*,*,#234,.F.);
#236=CARTESIAN_POINT('',(6.913057173623818,6.999999999999998,0.0));
#237=DIRECTION('',(0.0,1.0,0.0));
#238=DIRECTION('',(-1.0,0.0,0.0));
#239=AXIS2_PLACEMENT_3D('',#236,#237,#238);
#240=CIRCLE('',#239,5.0);
#241=EDGE_CURVE('',#227,#172,#240,.T.);
#242=ORIENTED_EDGE('',*,*,#241,.T.);
#243=CARTESIAN_POINT('',(11.913057173623818,7.0,2.886751345948127));
#244=DIRECTION('',(0.0,0.0,-1.0));
#245=VECTOR('',#244,2.886751345948128);
#246=LINE('',#243,#245);
#247=EDGE_CURVE('',#229,#172,#246,.T.);
#248=ORIENTED_EDGE('',*,*,#247,.F.);
#249=EDGE_LOOP('',(#235,#242,#248));
#250=FACE_OUTER_BOUND('',#249,.T.);
#251=ADVANCED_FACE('',(#250),#225,.T.);
#252=CARTESIAN_POINT('',(6.913057173623818,6.999999999999998,0.0));
#253=DIRECTION('',(0.0,-1.0,0.0));
#254=DIRECTION('',(0.0,0.0,-1.0));
#255=AXIS2_PLACEMENT_3D('',#252,#253,#254);
#256=PLANE('',#255);
#257=CARTESIAN_POINT('',(4.413057173623820,6.999999999999998,4.330127018922195));
#258=VERTEX_POINT('',#257);
#259=CARTESIAN_POINT('',(6.913057173623820,6.999999999999998,5.773502691896257));
#260=VERTEX_POINT('',#259);
#261=CARTESIAN_POINT('',(4.413057173623820,6.999999999999998,4.330127018922195));
#262=DIRECTION('',(0.866025403784439,0.0,0.500000000000000));
#263=VECTOR('',#262,2.886751345948128);
#264=LINE('',#261,#263);
#265=EDGE_CURVE('',#258,#260,#264,.T.);
#266=ORIENTED_EDGE('',*,*,#265,.F.);
#267=CARTESIAN_POINT('',(6.913057173623818,6.999999999999998,0.0));
#268=DIRECTION('',(0.0,1.0,0.0));
#269=DIRECTION('',(-1.0,0.0,0.0));
#270=AXIS2_PLACEMENT_3D('',#267,#268,#269);
#271=CIRCLE('',#270,5.0);
#272=EDGE_CURVE('',#258,#227,#271,.T.);
#273=ORIENTED_EDGE('',*,*,#272,.T.);
#274=CARTESIAN_POINT('',(6.913057173623820,6.999999999999998,5.773502691896257));
#275=DIRECTION('',(0.866025403784439,-3.076740E-016,-0.500000000000000));
#276=VECTOR('',#275,2.886751345948129);
#277=LINE('',#274,#276);
#278=EDGE_CURVE('',#260,#227,#277,.T.);
#279=ORIENTED_EDGE('',*,*,#278,.F.);
#280=EDGE_LOOP('',(#266,#273,#279));
#281=FACE_OUTER_BOUND('',#280,.T.);
#282=ADVANCED_FACE('',(#281),#256,.T.);
#283=CARTESIAN_POINT('',(6.913057173623818,6.999999999999998,0.0));
#284=DIRECTION('',(0.0,-1.0,0.0));
#285=DIRECTION('',(0.0,0.0,-1.0));
#286=AXIS2_PLACEMENT_3D('',#283,#284,#285);
#287=PLANE('',#286);
#288=CARTESIAN_POINT('',(1.913057173623819,6.999999999999997,2.886751345948131));
#289=VERTEX_POINT('',#288);
#290=CARTESIAN_POINT('',(1.913057173623819,6.999999999999997,2.886751345948131));
#291=DIRECTION('',(0.866025403784439,3.076740E-016,0.500000000000000));
#292=VECTOR('',#291,2.886751345948129);
#293=LINE('',#290,#292);
#294=EDGE_CURVE('',#289,#258,#293,.T.);
#295=ORIENTED_EDGE('',*,*,#294,.F.);
#296=CARTESIAN_POINT('',(1.913057173623818,6.999999999999998,2.775558E-015));
#297=DIRECTION('',(0.0,0.0,1.0));
#298=VECTOR('',#297,2.886751345948128);
#299=LINE('',#296,#298);
#300=EDGE_CURVE('',#144,#289,#299,.T.);
#301=ORIENTED_EDGE('',*,*,#300,.F.);
#302=CARTESIAN_POINT('',(6.913057173623818,6.999999999999998,0.0));
#303=DIRECTION('',(0.0,1.0,0.0));
#304=DIRECTION('',(-1.0,0.0,0.0));
#305=AXIS2_PLACEMENT_3D('',#302,#303,#304);
#306=CIRCLE('',#305,5.0);
#307=EDGE_CURVE('',#144,#258,#306,.T.);
#308=ORIENTED_EDGE('',*,*,#307,.T.);
#309=EDGE_LOOP('',(#295,#301,#308));
#310=FACE_OUTER_BOUND('',#309,.T.);
#311=ADVANCED_FACE('',(#310),#287,.T.);
#312=CARTESIAN_POINT('',(6.913057173623818,6.999999999999998,0.0));
#313=DIRECTION('',(0.0,-1.0,0.0));
#314=DIRECTION('',(0.0,0.0,-1.0));
#315=AXIS2_PLACEMENT_3D('',#312,#313,#314);
#316=PLANE('',#315);
#317=CARTESIAN_POINT('',(1.913057173623816,6.999999999999997,-2.886751345948127));
#318=VERTEX_POINT('',#317);
#319=CARTESIAN_POINT('',(1.913057173623816,6.999999999999997,-2.886751345948127));
#320=DIRECTION('',(0.0,0.0,1.0));
#321=VECTOR('',#320,2.886751345948130);
#322=LINE('',#319,#321);
#323=EDGE_CURVE('',#318,#144,#322,.T.);
#324=ORIENTED_EDGE('',*,*,#323,.F.);
#325=CARTESIAN_POINT('',(4.413057173623817,6.999999999999997,-4.330127018922193));
#326=DIRECTION('',(-0.866025403784438,0.0,0.500000000000000));
#327=VECTOR('',#326,2.886751345948130);
#328=LINE('',#325,#327);
#329=EDGE_CURVE('',#154,#318,#328,.T.);
#330=ORIENTED_EDGE('',*,*,#329,.F.);
#331=ORIENTED_EDGE('',*,*,#160,.T.);
#332=EDGE_LOOP('',(#324,#330,#331));
#333=FACE_OUTER_BOUND('',#332,.T.);
#334=ADVANCED_FACE('',(#333),#316,.T.);
#335=CARTESIAN_POINT('',(6.913057173623818,6.999999999999998,0.0));
#336=DIRECTION('',(0.0,-1.0,0.0));
#337=DIRECTION('',(0.0,0.0,-1.0));
#338=AXIS2_PLACEMENT_3D('',#335,#336,#337);
#339=PLANE('',#338);
#340=CARTESIAN_POINT('',(6.913057173623818,6.999999999999998,-5.773502691896258));
#341=VERTEX_POINT('',#340);
#342=CARTESIAN_POINT('',(6.913057173623818,6.999999999999998,-5.773502691896258));
#343=DIRECTION('',(-0.866025403784439,-3.076740E-016,0.500000000000000));
#344=VECTOR('',#343,2.886751345948130);
#345=LINE('',#342,#344);
#346=EDGE_CURVE('',#341,#154,#345,.T.);
#347=ORIENTED_EDGE('',*,*,#346,.F.);
#348=CARTESIAN_POINT('',(9.413057173623818,6.999999999999998,-4.330127018922195));
#349=DIRECTION('',(-0.866025403784439,0.0,-0.500000000000000));
#350=VECTOR('',#349,2.886751345948129);
#351=LINE('',#348,#350);
#352=EDGE_CURVE('',#163,#341,#351,.T.);
#353=ORIENTED_EDGE('',*,*,#352,.F.);
#354=ORIENTED_EDGE('',*,*,#169,.T.);
#355=EDGE_LOOP('',(#347,#353,#354));
#356=FACE_OUTER_BOUND('',#355,.T.);
#357=ADVANCED_FACE('',(#356),#339,.T.);
#358=CARTESIAN_POINT('',(6.913057173623818,9.0,0.0));
#359=DIRECTION('',(0.0,-1.0,0.0));
#360=DIRECTION('',(-1.0,0.0,0.0));
#361=AXIS2_PLACEMENT_3D('',#358,#359,#360);
#362=CYLINDRICAL_SURFACE('',#361,5.0);
#363=ORIENTED_EDGE('',*,*,#151,.T.);
#364=CARTESIAN_POINT('',(4.413057173623820,9.0,4.330127018922195));
#365=VERTEX_POINT('',#364);
#366=CARTESIAN_POINT('',(6.913057173623818,9.0,0.0));
#367=DIRECTION('',(0.0,-1.0,0.0));
#368=DIRECTION('',(-1.0,0.0,0.0));
#369=AXIS2_PLACEMENT_3D('',#366,#367,#368);
#370=CIRCLE('',#369,5.0);
#371=EDGE_CURVE('',#365,#146,#370,.T.);
#372=ORIENTED_EDGE('',*,*,#371,.F.);
#373=CARTESIAN_POINT('',(6.913057173623818,9.0,0.0));
#374=DIRECTION('',(0.0,-1.0,0.0));
#375=DIRECTION('',(-1.0,0.0,0.0));
#376=AXIS2_PLACEMENT_3D('',#373,#374,#375);
#377=CIRCLE('',#376,5.0);
#378=EDGE_CURVE('',#181,#365,#377,.T.);
#379=ORIENTED_EDGE('',*,*,#378,.F.);
#380=ORIENTED_EDGE('',*,*,#186,.T.);
#381=ORIENTED_EDGE('',*,*,#241,.F.);
#382=ORIENTED_EDGE('',*,*,#272,.F.);
#383=ORIENTED_EDGE('',*,*,#307,.F.);
#384=EDGE_LOOP('',(#363,#372,#379,#380,#381,#382,#383));
#385=FACE_OUTER_BOUND('',#384,.T.);
#386=ADVANCED_FACE('',(#385),#362,.F.);
#387=CARTESIAN_POINT('',(1.913057173623819,8.999999999999998,2.886751345948131));
#388=DIRECTION('',(-0.500000000000000,-9.251859E-017,0.866025403784439));
#389=DIRECTION('',(0.866025403784439,5.135813E-033,0.500000000000000));
#390=AXIS2_PLACEMENT_3D('',#387,#388,#389);
#391=PLANE('',#390);
#392=ORIENTED_EDGE('',*,*,#294,.T.);
#393=ORIENTED_EDGE('',*,*,#265,.T.);
#394=CARTESIAN_POINT('',(6.913057173623821,2.999999999999999,5.773502691896257));
#395=VERTEX_POINT('',#394);
#396=CARTESIAN_POINT('',(6.913057173623820,6.999999999999998,5.773502691896257));
#397=DIRECTION('',(0.0,-1.0,0.0));
#398=VECTOR('',#397,3.999999999999999);
#399=LINE('',#396,#398);
#400=EDGE_CURVE('',#260,#395,#399,.T.);
#401=ORIENTED_EDGE('',*,*,#400,.T.);
#402=CARTESIAN_POINT('',(1.913057173623820,2.999999999999998,2.886751345948131));
#403=VERTEX_POINT('',#402);
#404=CARTESIAN_POINT('',(1.913057173623820,2.999999999999998,2.886751345948131));
#405=DIRECTION('',(0.866025403784439,1.538370E-016,0.500000000000000));
#406=VECTOR('',#405,5.773502691896258);
#407=LINE('',#404,#406);
#408=EDGE_CURVE('',#403,#395,#407,.T.);
#409=ORIENTED_EDGE('',*,*,#408,.F.);
#410=CARTESIAN_POINT('',(1.913057173623819,6.999999999999997,2.886751345948131));
#411=DIRECTION('',(0.0,-1.0,0.0));
#412=VECTOR('',#411,3.999999999999999);
#413=LINE('',#410,#412);
#414=EDGE_CURVE('',#289,#403,#413,.T.);
#415=ORIENTED_EDGE('',*,*,#414,.F.);
#416=EDGE_LOOP('',(#392,#393,#401,#409,#415));
#417=FACE_OUTER_BOUND('',#416,.T.);
#418=ADVANCED_FACE('',(#417),#391,.F.);
#419=CARTESIAN_POINT('',(6.913057173623820,9.0,5.773502691896257));
#420=DIRECTION('',(0.500000000000000,9.251859E-017,0.866025403784439));
#421=DIRECTION('',(0.866025403784438,0.0,-0.500000000000000));
#422=AXIS2_PLACEMENT_3D('',#419,#420,#421);
#423=PLANE('',#422);
#424=ORIENTED_EDGE('',*,*,#278,.T.);
#425=ORIENTED_EDGE('',*,*,#234,.T.);
#426=CARTESIAN_POINT('',(11.913057173623818,3.000000000000000,2.886751345948127));
#427=VERTEX_POINT('',#426);
#428=CARTESIAN_POINT('',(11.913057173623818,7.0,2.886751345948127));
#429=DIRECTION('',(0.0,-1.0,0.0));
#430=VECTOR('',#429,4.000000000000000);
#431=LINE('',#428,#430);
#432=EDGE_CURVE('',#229,#427,#431,.T.);
#433=ORIENTED_EDGE('',*,*,#432,.T.);
#434=CARTESIAN_POINT('',(6.913057173623821,2.999999999999999,5.773502691896257));
#435=DIRECTION('',(0.866025403784438,2.307555E-016,-0.500000000000000));
#436=VECTOR('',#435,5.773502691896255);
#437=LINE('',#434,#436);
#438=EDGE_CURVE('',#395,#427,#437,.T.);
#439=ORIENTED_EDGE('',*,*,#438,.F.);
#440=ORIENTED_EDGE('',*,*,#400,.F.);
#441=EDGE_LOOP('',(#424,#425,#433,#439,#440));
#442=FACE_OUTER_BOUND('',#441,.T.);
#443=ADVANCED_FACE('',(#442),#423,.F.);
#444=CARTESIAN_POINT('',(11.913057173623818,9.0,2.886751345948127));
#445=DIRECTION('',(1.0,0.0,0.0));
#446=DIRECTION('',(0.0,0.0,-1.0));
#447=AXIS2_PLACEMENT_3D('',#444,#445,#446);
#448=PLANE('',#447);
#449=ORIENTED_EDGE('',*,*,#247,.T.);
#450=ORIENTED_EDGE('',*,*,#209,.T.);
#451=CARTESIAN_POINT('',(11.913057173623818,3.000000000000000,-2.886751345948130));
#452=VERTEX_POINT('',#451);
#453=CARTESIAN_POINT('',(11.913057173623818,7.0,-2.886751345948130));
#454=DIRECTION('',(0.0,-1.0,0.0));
#455=VECTOR('',#454,4.000000000000000);
#456=LINE('',#453,#455);
#457=EDGE_CURVE('',#204,#452,#456,.T.);
#458=ORIENTED_EDGE('',*,*,#457,.T.);
#459=CARTESIAN_POINT('',(11.913057173623818,3.000000000000000,2.886751345948127));
#460=DIRECTION('',(0.0,0.0,-1.0));
#461=VECTOR('',#460,5.773502691896257);
#462=LINE('',#459,#461);
#463=EDGE_CURVE('',#427,#452,#462,.T.);
#464=ORIENTED_EDGE('',*,*,#463,.F.);
#465=ORIENTED_EDGE('',*,*,#432,.F.);
#466=EDGE_LOOP('',(#449,#450,#458,#464,#465));
#467=FACE_OUTER_BOUND('',#466,.T.);
#468=ADVANCED_FACE('',(#467),#448,.F.);
#469=CARTESIAN_POINT('',(6.913057173623819,2.000000000000000,0.0));
#470=DIRECTION('',(-1.233581E-016,1.0,0.0));
#471=DIRECTION('',(0.0,0.0,1.0));
#472=AXIS2_PLACEMENT_3D('',#469,#470,#471);
#473=TOROIDAL_SURFACE('',#472,5.234857911269257,2.0);
#474=ORIENTED_EDGE('',*,*,#107,.T.);
#475=ORIENTED_EDGE('',*,*,#66,.T.);
#476=CARTESIAN_POINT('',(6.913057173623818,1.652703644666139,-8.822644E-016));
#477=DIRECTION('',(0.0,-1.0,0.0));
#478=DIRECTION('',(1.0,0.0,0.0));
#479=AXIS2_PLACEMENT_3D('',#476,#477,#478);
#480=CIRCLE('',#479,7.204473417293674);
#481=EDGE_CURVE('',#50,#119,#480,.T.);
#482=ORIENTED_EDGE('',*,*,#481,.T.);
#483=ORIENTED_EDGE('',*,*,#125,.T.);
#484=CARTESIAN_POINT('',(1.678199262354562,-9.065069E-017,0.0));
#485=VERTEX_POINT('',#484);
#486=CARTESIAN_POINT('',(6.913057173623819,5.551115E-016,0.0));
#487=DIRECTION('',(0.0,1.0,0.0));
#488=DIRECTION('',(1.0,0.0,0.0));
#489=AXIS2_PLACEMENT_3D('',#486,#487,#488);
#490=CIRCLE('',#489,5.234857911269257);
#491=EDGE_CURVE('',#110,#485,#490,.T.);
#492=ORIENTED_EDGE('',*,*,#491,.T.);
#493=CARTESIAN_POINT('',(6.913057173623819,5.551115E-016,0.0));
#494=DIRECTION('',(0.0,1.0,0.0));
#495=DIRECTION('',(1.0,0.0,0.0));
#496=AXIS2_PLACEMENT_3D('',#493,#494,#495);
#497=CIRCLE('',#496,5.234857911269257);
#498=EDGE_CURVE('',#485,#101,#497,.T.);
#499=ORIENTED_EDGE('',*,*,#498,.T.);
#500=EDGE_LOOP('',(#474,#475,#482,#483,#492,#499));
#501=FACE_OUTER_BOUND('',#500,.T.);
#502=ADVANCED_FACE('',(#501),#473,.T.);
#503=CARTESIAN_POINT('',(6.913057173623818,4.500000000000001,0.0));
#504=DIRECTION('',(-1.233581E-016,1.0,0.0));
#505=DIRECTION('',(-1.0,0.0,0.0));
#506=AXIS2_PLACEMENT_3D('',#503,#504,#505);
#507=CONICAL_SURFACE('',#506,7.706528586811910,9.999999999999986);
#508=ORIENTED_EDGE('',*,*,#57,.T.);
#509=CARTESIAN_POINT('',(6.913057173623818,9.0,0.0));
#510=DIRECTION('',(0.0,1.0,0.0));
#511=DIRECTION('',(-1.0,0.0,0.0));
#512=AXIS2_PLACEMENT_3D('',#509,#510,#511);
#513=CIRCLE('',#512,8.500000000000000);
#514=EDGE_CURVE('',#78,#52,#513,.T.);
#515=ORIENTED_EDGE('',*,*,#514,.F.);
#516=ORIENTED_EDGE('',*,*,#83,.T.);
#517=ORIENTED_EDGE('',*,*,#132,.F.);
#518=ORIENTED_EDGE('',*,*,#481,.F.);
#519=EDGE_LOOP('',(#508,#515,#516,#517,#518));
#520=FACE_OUTER_BOUND('',#519,.T.);
#521=ADVANCED_FACE('',(#520),#507,.T.);
#522=CARTESIAN_POINT('',(3.456528586811909,2.360918E-017,0.0));
#523=DIRECTION('',(0.0,-1.0,0.0));
#524=DIRECTION('',(0.0,0.0,-1.0));
#525=AXIS2_PLACEMENT_3D('',#522,#523,#524);
#526=PLANE('',#525);
#527=ORIENTED_EDGE('',*,*,#498,.F.);
#528=ORIENTED_EDGE('',*,*,#491,.F.);
#529=ORIENTED_EDGE('',*,*,#116,.F.);
#530=EDGE_LOOP('',(#527,#528,#529));
#531=FACE_OUTER_BOUND('',#530,.T.);
#532=ADVANCED_FACE('',(#531),#526,.T.);
#533=CARTESIAN_POINT('',(6.913057173623818,9.0,-5.773502691896258));
#534=DIRECTION('',(-0.500000000000000,-9.251859E-017,-0.866025403784439));
#535=DIRECTION('',(-0.866025403784439,0.0,0.500000000000000));
#536=AXIS2_PLACEMENT_3D('',#533,#534,#535);
#537=PLANE('',#536);
#538=ORIENTED_EDGE('',*,*,#329,.T.);
#539=CARTESIAN_POINT('',(1.913057173623817,2.999999999999998,-2.886751345948127));
#540=VERTEX_POINT('',#539);
#541=CARTESIAN_POINT('',(1.913057173623816,6.999999999999997,-2.886751345948127));
#542=DIRECTION('',(0.0,-1.0,0.0));
#543=VECTOR('',#542,3.999999999999999);
#544=LINE('',#541,#543);
#545=EDGE_CURVE('',#318,#540,#544,.T.);
#546=ORIENTED_EDGE('',*,*,#545,.T.);
#547=CARTESIAN_POINT('',(6.913057173623819,2.999999999999999,-5.773502691896258));
#548=VERTEX_POINT('',#547);
#549=CARTESIAN_POINT('',(6.913057173623819,2.999999999999999,-5.773502691896258));
#550=DIRECTION('',(-0.866025403784439,-1.538370E-016,0.500000000000000));
#551=VECTOR('',#550,5.773502691896260);
#552=LINE('',#549,#551);
#553=EDGE_CURVE('',#548,#540,#552,.T.);
#554=ORIENTED_EDGE('',*,*,#553,.F.);
#555=CARTESIAN_POINT('',(6.913057173623818,6.999999999999998,-5.773502691896258));
#556=DIRECTION('',(0.0,-1.0,0.0));
#557=VECTOR('',#556,3.999999999999999);
#558=LINE('',#555,#557);
#559=EDGE_CURVE('',#341,#548,#558,.T.);
#560=ORIENTED_EDGE('',*,*,#559,.F.);
#561=ORIENTED_EDGE('',*,*,#346,.T.);
#562=EDGE_LOOP('',(#538,#546,#554,#560,#561));
#563=FACE_OUTER_BOUND('',#562,.T.);
#564=ADVANCED_FACE('',(#563),#537,.F.);
#565=CARTESIAN_POINT('',(1.913057173623816,8.999999999999998,-2.886751345948127));
#566=DIRECTION('',(-1.0,0.0,0.0));
#567=DIRECTION('',(0.0,0.0,1.0));
#568=AXIS2_PLACEMENT_3D('',#565,#566,#567);
#569=PLANE('',#568);
#570=ORIENTED_EDGE('',*,*,#300,.T.);
#571=ORIENTED_EDGE('',*,*,#414,.T.);
#572=CARTESIAN_POINT('',(1.913057173623817,2.999999999999998,-2.886751345948127));
#573=DIRECTION('',(0.0,0.0,1.0));
#574=VECTOR('',#573,5.773502691896258);
#575=LINE('',#572,#574);
#576=EDGE_CURVE('',#540,#403,#575,.T.);
#577=ORIENTED_EDGE('',*,*,#576,.F.);
#578=ORIENTED_EDGE('',*,*,#545,.F.);
#579=ORIENTED_EDGE('',*,*,#323,.T.);
#580=EDGE_LOOP('',(#570,#571,#577,#578,#579));
#581=FACE_OUTER_BOUND('',#580,.T.);
#582=ADVANCED_FACE('',(#581),#569,.F.);
#583=CARTESIAN_POINT('',(11.913057173623818,9.0,-2.886751345948130));
#584=DIRECTION('',(0.500000000000000,9.251859E-017,-0.866025403784439));
#585=DIRECTION('',(-0.866025403784439,0.0,-0.500000000000000));
#586=AXIS2_PLACEMENT_3D('',#583,#584,#585);
#587=PLANE('',#586);
#588=ORIENTED_EDGE('',*,*,#352,.T.);
#589=ORIENTED_EDGE('',*,*,#559,.T.);
#590=CARTESIAN_POINT('',(11.913057173623818,3.000000000000000,-2.886751345948130));
#591=DIRECTION('',(-0.866025403784439,-2.307555E-016,-0.500000000000000));
#592=VECTOR('',#591,5.773502691896256);
#593=LINE('',#590,#592);
#594=EDGE_CURVE('',#452,#548,#593,.T.);
#595=ORIENTED_EDGE('',*,*,#594,.F.);
#596=ORIENTED_EDGE('',*,*,#457,.F.);
#597=ORIENTED_EDGE('',*,*,#216,.T.);
#598=EDGE_LOOP('',(#588,#589,#595,#596,#597));
#599=FACE_OUTER_BOUND('',#598,.T.);
#600=ADVANCED_FACE('',(#599),#587,.F.);
#601=CARTESIAN_POINT('',(6.913057173623819,2.999999999999999,-4.163336E-016));
#602=DIRECTION('',(0.0,1.0,0.0));
#603=DIRECTION('',(0.0,0.0,1.0));
#604=AXIS2_PLACEMENT_3D('',#601,#602,#603);
#605=PLANE('',#604);
#606=ORIENTED_EDGE('',*,*,#553,.T.);
#607=ORIENTED_EDGE('',*,*,#576,.T.);
#608=ORIENTED_EDGE('',*,*,#408,.T.);
#609=ORIENTED_EDGE('',*,*,#438,.T.);
#610=ORIENTED_EDGE('',*,*,#463,.T.);
#611=ORIENTED_EDGE('',*,*,#594,.T.);
#612=EDGE_LOOP('',(#606,#607,#608,#609,#610,#611));
#613=FACE_OUTER_BOUND('',#612,.T.);
#614=ADVANCED_FACE('',(#613),#605,.T.);
#615=CARTESIAN_POINT('',(2.663057173623817,9.0,0.0));
#616=DIRECTION('',(0.0,1.0,0.0));
#617=DIRECTION('',(0.0,0.0,1.0));
#618=AXIS2_PLACEMENT_3D('',#615,#616,#617);
#619=PLANE('',#618);
#620=ORIENTED_EDGE('',*,*,#90,.T.);
#621=ORIENTED_EDGE('',*,*,#514,.T.);
#622=EDGE_LOOP('',(#620,#621));
#623=FACE_OUTER_BOUND('',#622,.T.);
#624=ORIENTED_EDGE('',*,*,#371,.T.);
#625=ORIENTED_EDGE('',*,*,#193,.T.);
#626=ORIENTED_EDGE('',*,*,#378,.T.);
#627=EDGE_LOOP('',(#624,#625,#626));
#628=FACE_BOUND('',#627,.T.);
#629=ADVANCED_FACE('',(#623,#628),#619,.T.);
#630=CLOSED_SHELL('',(#94,#137,#197,#220,#251,#282,#311,#334,#357,#386,#418,#443,#468,#502,#521,#532,#564,#582,#600,#614,#629));
#631=MANIFOLD_SOLID_BREP('',#630);
#632=COLOUR_RGB('Black',0.321568638086319,0.321568638086319,0.321568638086319);
#633=FILL_AREA_STYLE_COLOUR('Black',#632);
#634=FILL_AREA_STYLE('Black',(#633));
#635=SURFACE_STYLE_FILL_AREA(#634);
#636=SURFACE_SIDE_STYLE('Black',(#635));
#637=SURFACE_STYLE_USAGE(.BOTH.,#636);
#638=PRESENTATION_STYLE_ASSIGNMENT((#637));
#639=STYLED_ITEM('',(#638),#631);
#640=MECHANICAL_DESIGN_GEOMETRIC_PRESENTATION_REPRESENTATION('',(#639),#36);
#641=ADVANCED_BREP_SHAPE_REPRESENTATION('ABSR',(#631),#36);
#642=SHAPE_REPRESENTATION_RELATIONSHIP('SRR','None',#641,#41);
ENDSEC;
END-ISO-10303-21;
