ISO-10303-21;
HEADER;
/****************************************************************
 * Generated by software with PDE/Lib inside                    *
 * PDElib Version 4.0, created Mon Oct 07, 2002 at 18:44:48     *
 * International Technegroup Inc. (www.iti-oh.com)              *
 ****************************************************************/
FILE_DESCRIPTION((''),'2;1');
FILE_NAME('C:\\DATA\\VÝKRESY 2004\\UPÍNKY\\PØÍSLUŠENSTVÍ PRO TÌŽKÉ UPÍNKY\\601P2.stp','2005-09-29T15:26:22',('CAD'),(''),'Autodesk Inventor 8','Autodesk Inventor 8','');
FILE_SCHEMA(('AUTOMOTIVE_DESIGN { 1 0 10303 214 1 1 1 1 }'));
ENDSEC;
DATA;
#5=APPLICATION_CONTEXT('automotive design');
#6=APPLICATION_PROTOCOL_DEFINITION('Draft International Standard','automotive_design',1998,#5);
#7=PRODUCT_CONTEXT('None',#5,'mechanical');
#8=PRODUCT('Part1','Part1','None',(#7));
#9=PRODUCT_RELATED_PRODUCT_CATEGORY('part','description',(#8));
#10=PRODUCT_DEFINITION_FORMATION('None','None',#8);
#11=PRODUCT_DEFINITION_CONTEXT('part definition',#5,'design');
#12=PRODUCT_DEFINITION('None','None',#10,#11);
#18=(NAMED_UNIT(*)PLANE_ANGLE_UNIT()SI_UNIT($,.RADIAN.));
#19=DIMENSIONAL_EXPONENTS(0.0,0.0,0.0,0.0,0.0,0.0,0.0);
#20=PLANE_ANGLE_MEASURE_WITH_UNIT(PLANE_ANGLE_MEASURE(0.017453292500000),#18);
#24=(CONVERSION_BASED_UNIT('DEGREE',#20)NAMED_UNIT(#19)PLANE_ANGLE_UNIT());
#28=(NAMED_UNIT(*)SI_UNIT($,.STERADIAN.)SOLID_ANGLE_UNIT());
#32=(LENGTH_UNIT()NAMED_UNIT(*)SI_UNIT(.MILLI.,.METRE.));
#34=UNCERTAINTY_MEASURE_WITH_UNIT(LENGTH_MEASURE(0.000001000000000),#32,'DISTANCE_ACCURACY_VALUE','');
#36=(GEOMETRIC_REPRESENTATION_CONTEXT(3)GLOBAL_UNCERTAINTY_ASSIGNED_CONTEXT((#34))GLOBAL_UNIT_ASSIGNED_CONTEXT((#24,#28,#32))REPRESENTATION_CONTEXT('None','None'));
#37=AXIS2_PLACEMENT_3D('',#38,#39,#40);
#38=CARTESIAN_POINT('',(0.0,0.0,0.0));
#39=DIRECTION('',(0.0,0.0,1.0));
#40=DIRECTION('',(1.0,0.0,0.0));
#41=SHAPE_REPRESENTATION('',(#37),#36);
#42=PRODUCT_DEFINITION_SHAPE('','',#12);
#43=SHAPE_DEFINITION_REPRESENTATION(#42,#41);
#44=CARTESIAN_POINT('',(4.283053939901920,-1.613904443833871,0.0));
#45=DIRECTION('',(0.0,0.0,1.0));
#46=DIRECTION('',(-1.0,0.0,0.0));
#47=AXIS2_PLACEMENT_3D('',#44,#45,#46);
#48=CYLINDRICAL_SURFACE('',#47,7.000000000000001);
#49=CARTESIAN_POINT('',(-2.716946060098081,-1.613904443833870,0.0));
#50=VERTEX_POINT('',#49);
#51=CARTESIAN_POINT('',(-2.716946060098081,-1.613904443833870,8.500000000000000));
#52=VERTEX_POINT('',#51);
#53=CARTESIAN_POINT('',(-2.716946060098081,-1.613904443833870,0.0));
#54=DIRECTION('',(0.0,0.0,1.0));
#55=VECTOR('',#54,8.500000000000000);
#56=LINE('',#53,#55);
#57=EDGE_CURVE('',#50,#52,#56,.T.);
#58=ORIENTED_EDGE('',*,*,#57,.F.);
#59=CARTESIAN_POINT('',(11.283053939901922,-1.613904443833870,0.0));
#60=VERTEX_POINT('',#59);
#61=CARTESIAN_POINT('',(4.283053939901920,-1.613904443833871,0.0));
#62=DIRECTION('',(0.0,0.0,-1.0));
#63=DIRECTION('',(-1.0,0.0,0.0));
#64=AXIS2_PLACEMENT_3D('',#61,#62,#63);
#65=CIRCLE('',#64,7.000000000000001);
#66=EDGE_CURVE('',#60,#50,#65,.T.);
#67=ORIENTED_EDGE('',*,*,#66,.F.);
#68=CARTESIAN_POINT('',(11.283053939901921,-1.613904443833872,8.500000000000000));
#69=VERTEX_POINT('',#68);
#70=CARTESIAN_POINT('',(11.283053939901921,-1.613904443833872,8.500000000000000));
#71=DIRECTION('',(0.0,0.0,-1.0));
#72=VECTOR('',#71,8.500000000000000);
#73=LINE('',#70,#72);
#74=EDGE_CURVE('',#69,#60,#73,.T.);
#75=ORIENTED_EDGE('',*,*,#74,.F.);
#76=CARTESIAN_POINT('',(4.283053939901920,-1.613904443833871,8.500000000000000));
#77=DIRECTION('',(0.0,0.0,-1.0));
#78=DIRECTION('',(-1.0,0.0,0.0));
#79=AXIS2_PLACEMENT_3D('',#76,#77,#78);
#80=CIRCLE('',#79,7.000000000000001);
#81=EDGE_CURVE('',#69,#52,#80,.T.);
#82=ORIENTED_EDGE('',*,*,#81,.T.);
#83=EDGE_LOOP('',(#58,#67,#75,#82));
#84=FACE_OUTER_BOUND('',#83,.T.);
#85=ADVANCED_FACE('',(#84),#48,.T.);
#86=CARTESIAN_POINT('',(4.283053939901920,-1.613904443833871,0.0));
#87=DIRECTION('',(0.0,0.0,1.0));
#88=DIRECTION('',(-1.0,0.0,0.0));
#89=AXIS2_PLACEMENT_3D('',#86,#87,#88);
#90=CYLINDRICAL_SURFACE('',#89,5.0);
#91=CARTESIAN_POINT('',(-0.716946060098080,-1.613904443833871,47.0));
#92=VERTEX_POINT('',#91);
#93=CARTESIAN_POINT('',(-0.716946060098080,-1.613904443833871,0.0));
#94=VERTEX_POINT('',#93);
#95=CARTESIAN_POINT('',(-0.716946060098080,-1.613904443833871,47.0));
#96=DIRECTION('',(0.0,0.0,-1.0));
#97=VECTOR('',#96,47.0);
#98=LINE('',#95,#97);
#99=EDGE_CURVE('',#92,#94,#98,.T.);
#100=ORIENTED_EDGE('',*,*,#99,.F.);
#101=CARTESIAN_POINT('',(9.283053939901919,-1.613904443833871,47.0));
#102=VERTEX_POINT('',#101);
#103=CARTESIAN_POINT('',(4.283053939901920,-1.613904443833871,47.0));
#104=DIRECTION('',(0.0,0.0,1.0));
#105=DIRECTION('',(-1.0,0.0,0.0));
#106=AXIS2_PLACEMENT_3D('',#103,#104,#105);
#107=CIRCLE('',#106,5.0);
#108=EDGE_CURVE('',#92,#102,#107,.T.);
#109=ORIENTED_EDGE('',*,*,#108,.T.);
#110=CARTESIAN_POINT('',(9.283053939901919,-1.613904443833871,0.0));
#111=VERTEX_POINT('',#110);
#112=CARTESIAN_POINT('',(9.283053939901919,-1.613904443833871,0.0));
#113=DIRECTION('',(0.0,0.0,1.0));
#114=VECTOR('',#113,47.0);
#115=LINE('',#112,#114);
#116=EDGE_CURVE('',#111,#102,#115,.T.);
#117=ORIENTED_EDGE('',*,*,#116,.F.);
#118=CARTESIAN_POINT('',(4.283053939901920,-1.613904443833871,0.0));
#119=DIRECTION('',(0.0,0.0,1.0));
#120=DIRECTION('',(-1.0,0.0,0.0));
#121=AXIS2_PLACEMENT_3D('',#118,#119,#120);
#122=CIRCLE('',#121,5.0);
#123=EDGE_CURVE('',#94,#111,#122,.T.);
#124=ORIENTED_EDGE('',*,*,#123,.F.);
#125=EDGE_LOOP('',(#100,#109,#117,#124));
#126=FACE_OUTER_BOUND('',#125,.T.);
#127=ADVANCED_FACE('',(#126),#90,.F.);
#128=CARTESIAN_POINT('',(4.283053939901920,-1.613904443833871,55.0));
#129=DIRECTION('',(0.0,0.0,-1.0));
#130=DIRECTION('',(-1.0,0.0,0.0));
#131=AXIS2_PLACEMENT_3D('',#128,#129,#130);
#132=CYLINDRICAL_SURFACE('',#131,5.500000000000000);
#133=CARTESIAN_POINT('',(-1.216946060098080,-1.613904443833872,47.0));
#134=VERTEX_POINT('',#133);
#135=CARTESIAN_POINT('',(-1.216946060098080,-1.613904443833872,48.500000000000000));
#136=VERTEX_POINT('',#135);
#137=CARTESIAN_POINT('',(-1.216946060098080,-1.613904443833872,47.0));
#138=DIRECTION('',(0.0,0.0,1.0));
#139=VECTOR('',#138,1.500000000000000);
#140=LINE('',#137,#139);
#141=EDGE_CURVE('',#134,#136,#140,.T.);
#142=ORIENTED_EDGE('',*,*,#141,.F.);
#143=CARTESIAN_POINT('',(9.783053939901921,-1.613904443833871,47.0));
#144=VERTEX_POINT('',#143);
#145=CARTESIAN_POINT('',(4.283053939901920,-1.613904443833871,47.0));
#146=DIRECTION('',(0.0,0.0,1.0));
#147=DIRECTION('',(-1.0,0.0,0.0));
#148=AXIS2_PLACEMENT_3D('',#145,#146,#147);
#149=CIRCLE('',#148,5.500000000000000);
#150=EDGE_CURVE('',#144,#134,#149,.T.);
#151=ORIENTED_EDGE('',*,*,#150,.F.);
#152=CARTESIAN_POINT('',(9.783053939901921,-1.613904443833872,48.500000000000000));
#153=VERTEX_POINT('',#152);
#154=CARTESIAN_POINT('',(9.783053939901921,-1.613904443833872,48.500000000000000));
#155=DIRECTION('',(0.0,0.0,-1.0));
#156=VECTOR('',#155,1.500000000000000);
#157=LINE('',#154,#156);
#158=EDGE_CURVE('',#153,#144,#157,.T.);
#159=ORIENTED_EDGE('',*,*,#158,.F.);
#160=CARTESIAN_POINT('',(4.283053939901920,-1.613904443833871,48.500000000000007));
#161=DIRECTION('',(0.0,0.0,1.0));
#162=DIRECTION('',(-1.0,0.0,0.0));
#163=AXIS2_PLACEMENT_3D('',#160,#161,#162);
#164=CIRCLE('',#163,5.500000000000000);
#165=EDGE_CURVE('',#153,#136,#164,.T.);
#166=ORIENTED_EDGE('',*,*,#165,.T.);
#167=EDGE_LOOP('',(#142,#151,#159,#166));
#168=FACE_OUTER_BOUND('',#167,.T.);
#169=ADVANCED_FACE('',(#168),#132,.F.);
#170=CARTESIAN_POINT('',(4.283053939901920,-1.613904443833871,48.250000000000000));
#171=DIRECTION('',(0.0,0.0,1.0));
#172=DIRECTION('',(-1.0,0.0,0.0));
#173=AXIS2_PLACEMENT_3D('',#170,#171,#172);
#174=CONICAL_SURFACE('',#173,5.250000000000000,45.0);
#175=CARTESIAN_POINT('',(-0.716946060098080,-1.613904443833872,48.0));
#176=VERTEX_POINT('',#175);
#177=CARTESIAN_POINT('',(-1.216946060098080,-1.613904443833872,48.500000000000000));
#178=DIRECTION('',(0.707106781186547,0.0,-0.707106781186547));
#179=VECTOR('',#178,0.707106781186548);
#180=LINE('',#177,#179);
#181=EDGE_CURVE('',#136,#176,#180,.T.);
#182=ORIENTED_EDGE('',*,*,#181,.F.);
#183=ORIENTED_EDGE('',*,*,#165,.F.);
#184=CARTESIAN_POINT('',(9.283053939901922,-1.613904443833870,48.0));
#185=VERTEX_POINT('',#184);
#186=CARTESIAN_POINT('',(9.283053939901922,-1.613904443833870,48.0));
#187=DIRECTION('',(0.707106781186546,-3.140185E-015,0.707106781186549));
#188=VECTOR('',#187,0.707106781186546);
#189=LINE('',#186,#188);
#190=EDGE_CURVE('',#185,#153,#189,.T.);
#191=ORIENTED_EDGE('',*,*,#190,.F.);
#192=CARTESIAN_POINT('',(4.283053939901920,-1.613904443833871,48.0));
#193=DIRECTION('',(0.0,0.0,1.0));
#194=DIRECTION('',(-1.0,0.0,0.0));
#195=AXIS2_PLACEMENT_3D('',#192,#193,#194);
#196=CIRCLE('',#195,5.0);
#197=EDGE_CURVE('',#185,#176,#196,.T.);
#198=ORIENTED_EDGE('',*,*,#197,.T.);
#199=EDGE_LOOP('',(#182,#183,#191,#198));
#200=FACE_OUTER_BOUND('',#199,.T.);
#201=ADVANCED_FACE('',(#200),#174,.T.);
#202=CARTESIAN_POINT('',(4.283053939901921,-1.613904443833872,8.500000000000000));
#203=DIRECTION('',(0.0,0.0,1.0));
#204=DIRECTION('',(-0.997229285675110,-0.074389191364810,0.0));
#205=AXIS2_PLACEMENT_3D('',#202,#203,#204);
#206=CYLINDRICAL_SURFACE('',#205,8.500000000000000);
#207=CARTESIAN_POINT('',(-4.193394988336513,-2.246212570434761,8.500000000000000));
#208=VERTEX_POINT('',#207);
#209=CARTESIAN_POINT('',(-4.193394988336513,-2.246212570434760,55.0));
#210=VERTEX_POINT('',#209);
#211=CARTESIAN_POINT('',(-4.193394988336513,-2.246212570434761,8.500000000000000));
#212=DIRECTION('',(0.0,0.0,1.0));
#213=VECTOR('',#212,46.500000000000000);
#214=LINE('',#211,#213);
#215=EDGE_CURVE('',#208,#210,#214,.T.);
#216=ORIENTED_EDGE('',*,*,#215,.F.);
#217=CARTESIAN_POINT('',(12.759502868140354,-0.981596317232982,8.500000000000000));
#218=VERTEX_POINT('',#217);
#219=CARTESIAN_POINT('',(4.283053939901921,-1.613904443833872,8.500000000000000));
#220=DIRECTION('',(0.0,0.0,-1.000000000000000));
#221=DIRECTION('',(-0.997229285675110,-0.074389191364810,0.0));
#222=AXIS2_PLACEMENT_3D('',#219,#220,#221);
#223=CIRCLE('',#222,8.500000000000000);
#224=EDGE_CURVE('',#218,#208,#223,.T.);
#225=ORIENTED_EDGE('',*,*,#224,.F.);
#226=CARTESIAN_POINT('',(12.759502868140354,-0.981596317232982,55.0));
#227=VERTEX_POINT('',#226);
#228=CARTESIAN_POINT('',(12.759502868140354,-0.981596317232982,55.0));
#229=DIRECTION('',(0.0,0.0,-1.0));
#230=VECTOR('',#229,46.500000000000000);
#231=LINE('',#228,#230);
#232=EDGE_CURVE('',#227,#218,#231,.T.);
#233=ORIENTED_EDGE('',*,*,#232,.F.);
#234=CARTESIAN_POINT('',(4.283053939901921,-1.613904443833872,55.0));
#235=DIRECTION('',(0.0,0.0,1.000000000000000));
#236=DIRECTION('',(-0.997229285675110,-0.074389191364810,0.0));
#237=AXIS2_PLACEMENT_3D('',#234,#235,#236);
#238=CIRCLE('',#237,8.500000000000000);
#239=EDGE_CURVE('',#210,#227,#238,.T.);
#240=ORIENTED_EDGE('',*,*,#239,.F.);
#241=EDGE_LOOP('',(#216,#225,#233,#240));
#242=FACE_OUTER_BOUND('',#241,.T.);
#243=ADVANCED_FACE('',(#242),#206,.T.);
#244=CARTESIAN_POINT('',(4.283053939901921,-1.613904443833872,55.0));
#245=DIRECTION('',(0.0,0.0,1.0));
#246=DIRECTION('',(0.997229285675110,0.074389191364810,0.0));
#247=AXIS2_PLACEMENT_3D('',#244,#245,#246);
#248=SPHERICAL_SURFACE('',#247,8.500000000000000);
#249=CARTESIAN_POINT('',(4.283053939901921,-1.613904443833872,55.0));
#250=DIRECTION('',(0.074389191364810,-0.997229285675110,0.0));
#251=DIRECTION('',(0.0,0.0,1.0));
#252=AXIS2_PLACEMENT_3D('',#249,#250,#251);
#253=CIRCLE('',#252,8.500000000000000);
#254=EDGE_CURVE('',#227,#210,#253,.T.);
#255=ORIENTED_EDGE('',*,*,#254,.F.);
#256=CARTESIAN_POINT('',(4.283053939901921,-1.613904443833872,55.0));
#257=DIRECTION('',(0.0,0.0,1.000000000000000));
#258=DIRECTION('',(-0.997229285675110,-0.074389191364810,0.0));
#259=AXIS2_PLACEMENT_3D('',#256,#257,#258);
#260=CIRCLE('',#259,8.500000000000000);
#261=EDGE_CURVE('',#227,#210,#260,.T.);
#262=ORIENTED_EDGE('',*,*,#261,.T.);
#263=EDGE_LOOP('',(#255,#262));
#264=FACE_OUTER_BOUND('',#263,.T.);
#265=ADVANCED_FACE('',(#264),#248,.T.);
#266=CARTESIAN_POINT('',(4.283053939901921,-1.613904443833872,55.0));
#267=DIRECTION('',(0.0,0.0,1.0));
#268=DIRECTION('',(0.997229285675110,0.074389191364810,0.0));
#269=AXIS2_PLACEMENT_3D('',#266,#267,#268);
#270=SPHERICAL_SURFACE('',#269,8.500000000000000);
#271=ORIENTED_EDGE('',*,*,#254,.T.);
#272=ORIENTED_EDGE('',*,*,#239,.T.);
#273=EDGE_LOOP('',(#271,#272));
#274=FACE_OUTER_BOUND('',#273,.T.);
#275=ADVANCED_FACE('',(#274),#270,.T.);
#276=CARTESIAN_POINT('',(4.283053939901921,-1.613904443833872,8.500000000000000));
#277=DIRECTION('',(0.0,0.0,1.0));
#278=DIRECTION('',(-0.997229285675110,-0.074389191364810,0.0));
#279=AXIS2_PLACEMENT_3D('',#276,#277,#278);
#280=CYLINDRICAL_SURFACE('',#279,8.500000000000000);
#281=ORIENTED_EDGE('',*,*,#215,.T.);
#282=ORIENTED_EDGE('',*,*,#261,.F.);
#283=ORIENTED_EDGE('',*,*,#232,.T.);
#284=CARTESIAN_POINT('',(4.283053939901921,-1.613904443833872,8.500000000000000));
#285=DIRECTION('',(0.0,0.0,-1.000000000000000));
#286=DIRECTION('',(-0.997229285675110,-0.074389191364810,0.0));
#287=AXIS2_PLACEMENT_3D('',#284,#285,#286);
#288=CIRCLE('',#287,8.500000000000000);
#289=EDGE_CURVE('',#208,#218,#288,.T.);
#290=ORIENTED_EDGE('',*,*,#289,.F.);
#291=EDGE_LOOP('',(#281,#282,#283,#290));
#292=FACE_OUTER_BOUND('',#291,.T.);
#293=ADVANCED_FACE('',(#292),#280,.T.);
#294=CARTESIAN_POINT('',(4.283053939901921,-1.613904443833872,8.500000000000000));
#295=DIRECTION('',(0.0,0.0,-1.0));
#296=DIRECTION('',(-0.997229285675110,-0.074389191364810,0.0));
#297=AXIS2_PLACEMENT_3D('',#294,#295,#296);
#298=PLANE('',#297);
#299=ORIENTED_EDGE('',*,*,#224,.T.);
#300=ORIENTED_EDGE('',*,*,#289,.T.);
#301=EDGE_LOOP('',(#299,#300));
#302=FACE_OUTER_BOUND('',#301,.T.);
#303=CARTESIAN_POINT('',(11.263658939627689,-1.093180104280198,8.500000000000000));
#304=VERTEX_POINT('',#303);
#305=CARTESIAN_POINT('',(4.283053939901920,-1.613904443833871,8.500000000000000));
#306=DIRECTION('',(0.0,0.0,-1.0));
#307=DIRECTION('',(-1.0,0.0,0.0));
#308=AXIS2_PLACEMENT_3D('',#305,#306,#307);
#309=CIRCLE('',#308,7.000000000000001);
#310=EDGE_CURVE('',#304,#69,#309,.T.);
#311=ORIENTED_EDGE('',*,*,#310,.F.);
#312=CARTESIAN_POINT('',(4.283053939901920,-1.613904443833871,8.500000000000000));
#313=DIRECTION('',(0.0,0.0,-1.0));
#314=DIRECTION('',(-1.0,0.0,0.0));
#315=AXIS2_PLACEMENT_3D('',#312,#313,#314);
#316=CIRCLE('',#315,7.000000000000001);
#317=EDGE_CURVE('',#52,#304,#316,.T.);
#318=ORIENTED_EDGE('',*,*,#317,.F.);
#319=ORIENTED_EDGE('',*,*,#81,.F.);
#320=EDGE_LOOP('',(#311,#318,#319));
#321=FACE_BOUND('',#320,.T.);
#322=ADVANCED_FACE('',(#302,#321),#298,.T.);
#323=CARTESIAN_POINT('',(4.283053939901920,-1.613904443833871,48.250000000000000));
#324=DIRECTION('',(0.0,0.0,1.0));
#325=DIRECTION('',(-1.0,0.0,0.0));
#326=AXIS2_PLACEMENT_3D('',#323,#324,#325);
#327=CONICAL_SURFACE('',#326,5.250000000000000,45.0);
#328=ORIENTED_EDGE('',*,*,#181,.T.);
#329=CARTESIAN_POINT('',(4.283053939901920,-1.613904443833871,48.0));
#330=DIRECTION('',(0.0,0.0,1.0));
#331=DIRECTION('',(-1.0,0.0,0.0));
#332=AXIS2_PLACEMENT_3D('',#329,#330,#331);
#333=CIRCLE('',#332,5.0);
#334=EDGE_CURVE('',#176,#185,#333,.T.);
#335=ORIENTED_EDGE('',*,*,#334,.T.);
#336=ORIENTED_EDGE('',*,*,#190,.T.);
#337=CARTESIAN_POINT('',(4.283053939901920,-1.613904443833871,48.500000000000007));
#338=DIRECTION('',(0.0,0.0,1.0));
#339=DIRECTION('',(-1.0,0.0,0.0));
#340=AXIS2_PLACEMENT_3D('',#337,#338,#339);
#341=CIRCLE('',#340,5.500000000000000);
#342=EDGE_CURVE('',#136,#153,#341,.T.);
#343=ORIENTED_EDGE('',*,*,#342,.F.);
#344=EDGE_LOOP('',(#328,#335,#336,#343));
#345=FACE_OUTER_BOUND('',#344,.T.);
#346=ADVANCED_FACE('',(#345),#327,.T.);
#347=CARTESIAN_POINT('',(4.283053939901920,-1.613904443833871,48.0));
#348=DIRECTION('',(0.0,0.0,1.0));
#349=DIRECTION('',(-1.0,0.0,0.0));
#350=AXIS2_PLACEMENT_3D('',#347,#348,#349);
#351=PLANE('',#350);
#352=ORIENTED_EDGE('',*,*,#197,.F.);
#353=ORIENTED_EDGE('',*,*,#334,.F.);
#354=EDGE_LOOP('',(#352,#353));
#355=FACE_OUTER_BOUND('',#354,.T.);
#356=ADVANCED_FACE('',(#355),#351,.F.);
#357=CARTESIAN_POINT('',(4.283053939901920,-1.613904443833871,55.0));
#358=DIRECTION('',(0.0,0.0,-1.0));
#359=DIRECTION('',(-1.0,0.0,0.0));
#360=AXIS2_PLACEMENT_3D('',#357,#358,#359);
#361=CYLINDRICAL_SURFACE('',#360,5.500000000000000);
#362=ORIENTED_EDGE('',*,*,#141,.T.);
#363=ORIENTED_EDGE('',*,*,#342,.T.);
#364=ORIENTED_EDGE('',*,*,#158,.T.);
#365=CARTESIAN_POINT('',(4.283053939901920,-1.613904443833871,47.0));
#366=DIRECTION('',(0.0,0.0,1.0));
#367=DIRECTION('',(-1.0,0.0,0.0));
#368=AXIS2_PLACEMENT_3D('',#365,#366,#367);
#369=CIRCLE('',#368,5.500000000000000);
#370=EDGE_CURVE('',#134,#144,#369,.T.);
#371=ORIENTED_EDGE('',*,*,#370,.F.);
#372=EDGE_LOOP('',(#362,#363,#364,#371));
#373=FACE_OUTER_BOUND('',#372,.T.);
#374=ADVANCED_FACE('',(#373),#361,.F.);
#375=CARTESIAN_POINT('',(4.283053939901920,-1.613904443833871,47.0));
#376=DIRECTION('',(0.0,0.0,-1.0));
#377=DIRECTION('',(-1.0,0.0,0.0));
#378=AXIS2_PLACEMENT_3D('',#375,#376,#377);
#379=PLANE('',#378);
#380=ORIENTED_EDGE('',*,*,#150,.T.);
#381=ORIENTED_EDGE('',*,*,#370,.T.);
#382=EDGE_LOOP('',(#380,#381));
#383=FACE_OUTER_BOUND('',#382,.T.);
#384=CARTESIAN_POINT('',(4.283053939901920,-1.613904443833871,47.0));
#385=DIRECTION('',(0.0,0.0,1.0));
#386=DIRECTION('',(-1.0,0.0,0.0));
#387=AXIS2_PLACEMENT_3D('',#384,#385,#386);
#388=CIRCLE('',#387,5.0);
#389=EDGE_CURVE('',#102,#92,#388,.T.);
#390=ORIENTED_EDGE('',*,*,#389,.F.);
#391=ORIENTED_EDGE('',*,*,#108,.F.);
#392=EDGE_LOOP('',(#390,#391));
#393=FACE_BOUND('',#392,.T.);
#394=ADVANCED_FACE('',(#383,#393),#379,.F.);
#395=CARTESIAN_POINT('',(4.283053939901920,-1.613904443833871,0.0));
#396=DIRECTION('',(0.0,0.0,1.0));
#397=DIRECTION('',(-1.0,0.0,0.0));
#398=AXIS2_PLACEMENT_3D('',#395,#396,#397);
#399=CYLINDRICAL_SURFACE('',#398,5.0);
#400=ORIENTED_EDGE('',*,*,#99,.T.);
#401=CARTESIAN_POINT('',(4.283053939901920,-1.613904443833871,0.0));
#402=DIRECTION('',(0.0,0.0,1.0));
#403=DIRECTION('',(-1.0,0.0,0.0));
#404=AXIS2_PLACEMENT_3D('',#401,#402,#403);
#405=CIRCLE('',#404,5.0);
#406=EDGE_CURVE('',#111,#94,#405,.T.);
#407=ORIENTED_EDGE('',*,*,#406,.F.);
#408=ORIENTED_EDGE('',*,*,#116,.T.);
#409=ORIENTED_EDGE('',*,*,#389,.T.);
#410=EDGE_LOOP('',(#400,#407,#408,#409));
#411=FACE_OUTER_BOUND('',#410,.T.);
#412=ADVANCED_FACE('',(#411),#399,.F.);
#413=CARTESIAN_POINT('',(4.283053939901920,-1.613904443833871,0.0));
#414=DIRECTION('',(0.0,0.0,1.0));
#415=DIRECTION('',(-1.0,0.0,0.0));
#416=AXIS2_PLACEMENT_3D('',#413,#414,#415);
#417=CYLINDRICAL_SURFACE('',#416,7.000000000000001);
#418=ORIENTED_EDGE('',*,*,#57,.T.);
#419=ORIENTED_EDGE('',*,*,#317,.T.);
#420=ORIENTED_EDGE('',*,*,#310,.T.);
#421=ORIENTED_EDGE('',*,*,#74,.T.);
#422=CARTESIAN_POINT('',(4.283053939901920,-1.613904443833871,0.0));
#423=DIRECTION('',(0.0,0.0,-1.0));
#424=DIRECTION('',(-1.0,0.0,0.0));
#425=AXIS2_PLACEMENT_3D('',#422,#423,#424);
#426=CIRCLE('',#425,7.000000000000001);
#427=EDGE_CURVE('',#50,#60,#426,.T.);
#428=ORIENTED_EDGE('',*,*,#427,.F.);
#429=EDGE_LOOP('',(#418,#419,#420,#421,#428));
#430=FACE_OUTER_BOUND('',#429,.T.);
#431=ADVANCED_FACE('',(#430),#417,.T.);
#432=CARTESIAN_POINT('',(4.283053939901920,-1.613904443833871,0.0));
#433=DIRECTION('',(0.0,0.0,-1.0));
#434=DIRECTION('',(-1.0,0.0,0.0));
#435=AXIS2_PLACEMENT_3D('',#432,#433,#434);
#436=PLANE('',#435);
#437=ORIENTED_EDGE('',*,*,#66,.T.);
#438=ORIENTED_EDGE('',*,*,#427,.T.);
#439=EDGE_LOOP('',(#437,#438));
#440=FACE_OUTER_BOUND('',#439,.T.);
#441=ORIENTED_EDGE('',*,*,#406,.T.);
#442=ORIENTED_EDGE('',*,*,#123,.T.);
#443=EDGE_LOOP('',(#441,#442));
#444=FACE_BOUND('',#443,.T.);
#445=ADVANCED_FACE('',(#440,#444),#436,.T.);
#446=CLOSED_SHELL('',(#85,#127,#169,#201,#243,#265,#275,#293,#322,#346,#356,#374,#394,#412,#431,#445));
#447=MANIFOLD_SOLID_BREP('',#446);
#448=COLOUR_RGB('Metal-Steel',0.639216005802155,0.639216005802155,0.686275005340576);
#449=FILL_AREA_STYLE_COLOUR('Metal-Steel',#448);
#450=FILL_AREA_STYLE('Metal-Steel',(#449));
#451=SURFACE_STYLE_FILL_AREA(#450);
#452=SURFACE_SIDE_STYLE('Metal-Steel',(#451));
#453=SURFACE_STYLE_USAGE(.BOTH.,#452);
#454=PRESENTATION_STYLE_ASSIGNMENT((#453));
#455=STYLED_ITEM('',(#454),#447);
#456=MECHANICAL_DESIGN_GEOMETRIC_PRESENTATION_REPRESENTATION('',(#455),#36);
#457=ADVANCED_BREP_SHAPE_REPRESENTATION('ABSR',(#447),#36);
#458=SHAPE_REPRESENTATION_RELATIONSHIP('SRR','None',#457,#41);
ENDSEC;
END-ISO-10303-21;
